ISO-10303-21;
HEADER;
/* Generated by software containing ST-Developer
 * from STEP Tools, Inc. (www.steptools.com) 
 */
/* OPTION: using custom schema-name function */

FILE_DESCRIPTION(
/* description */ (''),
/* implementation_level */ '2;1');

FILE_NAME(
/* name */ 'EX-D11Q.stp',
/* time_stamp */ '2023-04-10T09:42:01+08:00',
/* author */ (''),
/* organization */ (''),
/* preprocessor_version */ 'ST-DEVELOPER v16.7',
/* originating_system */ 'SIEMENS PLM Software NX 12.0',
/* authorisation */ '');

FILE_SCHEMA (('AUTOMOTIVE_DESIGN { 1 0 10303 214 3 1 1 1 }'));
ENDSEC;

DATA;
#10=SHAPE_REPRESENTATION_RELATIONSHIP('None',
'relationship between EX-D11Q-None and EX-D11Q-None',#22,#11);
#11=ADVANCED_BREP_SHAPE_REPRESENTATION('EX-D11Q-None',(#32),#325);
#12=SHAPE_DEFINITION_REPRESENTATION(#13,#22);
#13=PRODUCT_DEFINITION_SHAPE('','',#14);
#14=PRODUCT_DEFINITION(' ','',#16,#15);
#15=PRODUCT_DEFINITION_CONTEXT('part definition',#21,'design');
#16=PRODUCT_DEFINITION_FORMATION_WITH_SPECIFIED_SOURCE(' ',' ',#18,
 .NOT_KNOWN.);
#17=PRODUCT_RELATED_PRODUCT_CATEGORY('part','',(#18));
#18=PRODUCT('EX-D11Q','EX-D11Q',' ',(#19));
#19=PRODUCT_CONTEXT(' ',#21,'mechanical');
#20=APPLICATION_PROTOCOL_DEFINITION('international standard',
'automotive_design',2010,#21);
#21=APPLICATION_CONTEXT(
'core data for automotive mechanical design processes');
#22=SHAPE_REPRESENTATION('EX-D11Q-None',(#190),#325);
#23=PRESENTATION_LAYER_ASSIGNMENT('1','Layer 1',(#32));
#24=STYLED_ITEM('',(#25),#32);
#25=PRESENTATION_STYLE_ASSIGNMENT((#26));
#26=SURFACE_STYLE_USAGE(.BOTH.,#27);
#27=SURFACE_SIDE_STYLE('',(#28));
#28=SURFACE_STYLE_FILL_AREA(#29);
#29=FILL_AREA_STYLE('',(#30));
#30=FILL_AREA_STYLE_COLOUR('',#31);
#31=COLOUR_RGB('Orange',1.,0.6,0.);
#32=MANIFOLD_SOLID_BREP('',#33);
#33=CLOSED_SHELL('',(#50,#51,#52,#53,#54,#55,#56,#57,#58,#59,#60,#61,#62,
#63));
#34=FACE_OUTER_BOUND('',#105,.T.);
#35=FACE_OUTER_BOUND('',#106,.T.);
#36=FACE_OUTER_BOUND('',#107,.T.);
#37=FACE_OUTER_BOUND('',#110,.T.);
#38=FACE_OUTER_BOUND('',#113,.T.);
#39=LINE('',#307,#41);
#40=LINE('',#311,#42);
#41=VECTOR('',#255,1.);
#42=VECTOR('',#258,1.);
#43=PLANE('',#195);
#44=PLANE('',#198);
#45=PLANE('',#206);
#46=PLANE('',#207);
#47=PLANE('',#212);
#48=PLANE('',#215);
#49=PLANE('',#218);
#50=ADVANCED_FACE('',(#71,#72),#64,.T.);
#51=ADVANCED_FACE('',(#73,#74),#43,.F.);
#52=ADVANCED_FACE('',(#75,#76,#77),#44,.T.);
#53=ADVANCED_FACE('',(#78,#79),#65,.T.);
#54=ADVANCED_FACE('',(#80,#81),#66,.T.);
#55=ADVANCED_FACE('',(#82,#83),#45,.T.);
#56=ADVANCED_FACE('',(#84,#85),#46,.F.);
#57=ADVANCED_FACE('',(#34),#67,.T.);
#58=ADVANCED_FACE('',(#35),#68,.T.);
#59=ADVANCED_FACE('',(#36),#47,.T.);
#60=ADVANCED_FACE('',(#86,#87),#69,.F.);
#61=ADVANCED_FACE('',(#37),#48,.T.);
#62=ADVANCED_FACE('',(#88,#89),#70,.F.);
#63=ADVANCED_FACE('',(#38),#49,.T.);
#64=CYLINDRICAL_SURFACE('',#193,0.75);
#65=CYLINDRICAL_SURFACE('',#200,0.5);
#66=CYLINDRICAL_SURFACE('',#203,1.5);
#67=CYLINDRICAL_SURFACE('',#209,0.5);
#68=CYLINDRICAL_SURFACE('',#211,0.5);
#69=CYLINDRICAL_SURFACE('',#214,0.25);
#70=CYLINDRICAL_SURFACE('',#217,0.25);
#71=FACE_BOUND('',#90,.T.);
#72=FACE_BOUND('',#91,.T.);
#73=FACE_BOUND('',#92,.T.);
#74=FACE_BOUND('',#93,.T.);
#75=FACE_BOUND('',#94,.T.);
#76=FACE_BOUND('',#95,.T.);
#77=FACE_BOUND('',#96,.T.);
#78=FACE_BOUND('',#97,.T.);
#79=FACE_BOUND('',#98,.T.);
#80=FACE_BOUND('',#99,.T.);
#81=FACE_BOUND('',#100,.T.);
#82=FACE_BOUND('',#101,.T.);
#83=FACE_BOUND('',#102,.T.);
#84=FACE_BOUND('',#103,.T.);
#85=FACE_BOUND('',#104,.T.);
#86=FACE_BOUND('',#108,.T.);
#87=FACE_BOUND('',#109,.T.);
#88=FACE_BOUND('',#111,.T.);
#89=FACE_BOUND('',#112,.T.);
#90=EDGE_LOOP('',(#114));
#91=EDGE_LOOP('',(#115));
#92=EDGE_LOOP('',(#116));
#93=EDGE_LOOP('',(#117));
#94=EDGE_LOOP('',(#118));
#95=EDGE_LOOP('',(#119));
#96=EDGE_LOOP('',(#120));
#97=EDGE_LOOP('',(#121));
#98=EDGE_LOOP('',(#122));
#99=EDGE_LOOP('',(#123));
#100=EDGE_LOOP('',(#124));
#101=EDGE_LOOP('',(#125,#126));
#102=EDGE_LOOP('',(#127));
#103=EDGE_LOOP('',(#128));
#104=EDGE_LOOP('',(#129));
#105=EDGE_LOOP('',(#130,#131,#132,#133));
#106=EDGE_LOOP('',(#134,#135,#136,#137));
#107=EDGE_LOOP('',(#138,#139));
#108=EDGE_LOOP('',(#140));
#109=EDGE_LOOP('',(#141));
#110=EDGE_LOOP('',(#142));
#111=EDGE_LOOP('',(#143));
#112=EDGE_LOOP('',(#144));
#113=EDGE_LOOP('',(#145));
#114=ORIENTED_EDGE('',*,*,#160,.T.);
#115=ORIENTED_EDGE('',*,*,#161,.F.);
#116=ORIENTED_EDGE('',*,*,#162,.F.);
#117=ORIENTED_EDGE('',*,*,#160,.F.);
#118=ORIENTED_EDGE('',*,*,#163,.F.);
#119=ORIENTED_EDGE('',*,*,#164,.F.);
#120=ORIENTED_EDGE('',*,*,#161,.T.);
#121=ORIENTED_EDGE('',*,*,#165,.F.);
#122=ORIENTED_EDGE('',*,*,#162,.T.);
#123=ORIENTED_EDGE('',*,*,#166,.F.);
#124=ORIENTED_EDGE('',*,*,#167,.T.);
#125=ORIENTED_EDGE('',*,*,#168,.F.);
#126=ORIENTED_EDGE('',*,*,#169,.F.);
#127=ORIENTED_EDGE('',*,*,#166,.T.);
#128=ORIENTED_EDGE('',*,*,#165,.T.);
#129=ORIENTED_EDGE('',*,*,#167,.F.);
#130=ORIENTED_EDGE('',*,*,#168,.T.);
#131=ORIENTED_EDGE('',*,*,#170,.F.);
#132=ORIENTED_EDGE('',*,*,#171,.F.);
#133=ORIENTED_EDGE('',*,*,#172,.F.);
#134=ORIENTED_EDGE('',*,*,#169,.T.);
#135=ORIENTED_EDGE('',*,*,#172,.T.);
#136=ORIENTED_EDGE('',*,*,#173,.F.);
#137=ORIENTED_EDGE('',*,*,#170,.T.);
#138=ORIENTED_EDGE('',*,*,#171,.T.);
#139=ORIENTED_EDGE('',*,*,#173,.T.);
#140=ORIENTED_EDGE('',*,*,#174,.T.);
#141=ORIENTED_EDGE('',*,*,#164,.T.);
#142=ORIENTED_EDGE('',*,*,#174,.F.);
#143=ORIENTED_EDGE('',*,*,#175,.T.);
#144=ORIENTED_EDGE('',*,*,#163,.T.);
#145=ORIENTED_EDGE('',*,*,#175,.F.);
#146=VERTEX_POINT('',#281);
#147=VERTEX_POINT('',#283);
#148=VERTEX_POINT('',#286);
#149=VERTEX_POINT('',#289);
#150=VERTEX_POINT('',#291);
#151=VERTEX_POINT('',#294);
#152=VERTEX_POINT('',#297);
#153=VERTEX_POINT('',#299);
#154=VERTEX_POINT('',#302);
#155=VERTEX_POINT('',#303);
#156=VERTEX_POINT('',#308);
#157=VERTEX_POINT('',#310);
#158=VERTEX_POINT('',#317);
#159=VERTEX_POINT('',#321);
#160=EDGE_CURVE('',#146,#146,#176,.T.);
#161=EDGE_CURVE('',#147,#147,#177,.T.);
#162=EDGE_CURVE('',#148,#148,#178,.T.);
#163=EDGE_CURVE('',#149,#149,#179,.T.);
#164=EDGE_CURVE('',#150,#150,#180,.T.);
#165=EDGE_CURVE('',#151,#151,#181,.T.);
#166=EDGE_CURVE('',#152,#152,#182,.T.);
#167=EDGE_CURVE('',#153,#153,#183,.T.);
#168=EDGE_CURVE('',#154,#155,#184,.T.);
#169=EDGE_CURVE('',#155,#154,#185,.T.);
#170=EDGE_CURVE('',#156,#155,#39,.T.);
#171=EDGE_CURVE('',#157,#156,#186,.T.);
#172=EDGE_CURVE('',#154,#157,#40,.T.);
#173=EDGE_CURVE('',#156,#157,#187,.T.);
#174=EDGE_CURVE('',#158,#158,#188,.T.);
#175=EDGE_CURVE('',#159,#159,#189,.T.);
#176=CIRCLE('',#191,0.75);
#177=CIRCLE('',#192,0.75);
#178=CIRCLE('',#194,0.5);
#179=CIRCLE('',#196,0.25);
#180=CIRCLE('',#197,0.25);
#181=CIRCLE('',#199,0.5);
#182=CIRCLE('',#201,1.5);
#183=CIRCLE('',#202,1.5);
#184=CIRCLE('',#204,0.5);
#185=CIRCLE('',#205,0.5);
#186=CIRCLE('',#208,0.5);
#187=CIRCLE('',#210,0.5);
#188=CIRCLE('',#213,0.25);
#189=CIRCLE('',#216,0.25);
#190=AXIS2_PLACEMENT_3D('',#279,#219,#220);
#191=AXIS2_PLACEMENT_3D('',#280,#221,#222);
#192=AXIS2_PLACEMENT_3D('',#282,#223,#224);
#193=AXIS2_PLACEMENT_3D('',#284,#225,#226);
#194=AXIS2_PLACEMENT_3D('',#285,#227,#228);
#195=AXIS2_PLACEMENT_3D('',#287,#229,#230);
#196=AXIS2_PLACEMENT_3D('',#288,#231,#232);
#197=AXIS2_PLACEMENT_3D('',#290,#233,#234);
#198=AXIS2_PLACEMENT_3D('',#292,#235,#236);
#199=AXIS2_PLACEMENT_3D('',#293,#237,#238);
#200=AXIS2_PLACEMENT_3D('',#295,#239,#240);
#201=AXIS2_PLACEMENT_3D('',#296,#241,#242);
#202=AXIS2_PLACEMENT_3D('',#298,#243,#244);
#203=AXIS2_PLACEMENT_3D('',#300,#245,#246);
#204=AXIS2_PLACEMENT_3D('',#301,#247,#248);
#205=AXIS2_PLACEMENT_3D('',#304,#249,#250);
#206=AXIS2_PLACEMENT_3D('',#305,#251,#252);
#207=AXIS2_PLACEMENT_3D('',#306,#253,#254);
#208=AXIS2_PLACEMENT_3D('',#309,#256,#257);
#209=AXIS2_PLACEMENT_3D('',#312,#259,#260);
#210=AXIS2_PLACEMENT_3D('',#313,#261,#262);
#211=AXIS2_PLACEMENT_3D('',#314,#263,#264);
#212=AXIS2_PLACEMENT_3D('',#315,#265,#266);
#213=AXIS2_PLACEMENT_3D('',#316,#267,#268);
#214=AXIS2_PLACEMENT_3D('',#318,#269,#270);
#215=AXIS2_PLACEMENT_3D('',#319,#271,#272);
#216=AXIS2_PLACEMENT_3D('',#320,#273,#274);
#217=AXIS2_PLACEMENT_3D('',#322,#275,#276);
#218=AXIS2_PLACEMENT_3D('',#323,#277,#278);
#219=DIRECTION('',(0.,0.,1.));
#220=DIRECTION('',(1.,0.,0.));
#221=DIRECTION('',(0.,0.,-1.));
#222=DIRECTION('',(1.,1.22464679914735E-16,0.));
#223=DIRECTION('',(0.,0.,-1.));
#224=DIRECTION('',(1.,1.22464679914735E-16,0.));
#225=DIRECTION('',(0.,0.,-1.));
#226=DIRECTION('',(-1.,0.,0.));
#227=DIRECTION('',(0.,0.,1.));
#228=DIRECTION('',(1.,0.,0.));
#229=DIRECTION('',(0.,0.,-1.));
#230=DIRECTION('',(-1.,0.,0.));
#231=DIRECTION('',(0.,0.,-1.));
#232=DIRECTION('',(-6.12323399573677E-17,1.,0.));
#233=DIRECTION('',(0.,0.,-1.));
#234=DIRECTION('',(-6.12323399573677E-17,1.,0.));
#235=DIRECTION('',(0.,0.,-1.));
#236=DIRECTION('',(-1.,0.,0.));
#237=DIRECTION('',(0.,0.,1.));
#238=DIRECTION('',(1.,0.,0.));
#239=DIRECTION('',(0.,0.,-1.));
#240=DIRECTION('',(-1.,0.,0.));
#241=DIRECTION('',(0.,0.,1.));
#242=DIRECTION('',(1.,0.,0.));
#243=DIRECTION('',(0.,0.,1.));
#244=DIRECTION('',(1.,0.,0.));
#245=DIRECTION('',(0.,0.,-1.));
#246=DIRECTION('',(-1.,0.,0.));
#247=DIRECTION('',(0.,0.,1.));
#248=DIRECTION('',(1.,0.,0.));
#249=DIRECTION('',(0.,0.,1.));
#250=DIRECTION('',(1.,0.,0.));
#251=DIRECTION('',(0.,0.,1.));
#252=DIRECTION('',(1.,0.,0.));
#253=DIRECTION('',(0.,0.,1.));
#254=DIRECTION('',(1.,0.,0.));
#255=DIRECTION('',(0.,0.,-1.));
#256=DIRECTION('',(0.,0.,1.));
#257=DIRECTION('',(1.,0.,0.));
#258=DIRECTION('',(0.,0.,1.));
#259=DIRECTION('',(0.,0.,-1.));
#260=DIRECTION('',(-1.,0.,0.));
#261=DIRECTION('',(0.,0.,1.));
#262=DIRECTION('',(1.,0.,0.));
#263=DIRECTION('',(0.,0.,-1.));
#264=DIRECTION('',(-1.,0.,0.));
#265=DIRECTION('',(0.,0.,1.));
#266=DIRECTION('',(1.,0.,0.));
#267=DIRECTION('',(0.,0.,1.));
#268=DIRECTION('',(-6.12323399573677E-17,1.,0.));
#269=DIRECTION('',(0.,0.,-1.));
#270=DIRECTION('',(-1.,0.,0.));
#271=DIRECTION('',(0.,0.,-1.));
#272=DIRECTION('',(-1.,0.,0.));
#273=DIRECTION('',(0.,0.,1.));
#274=DIRECTION('',(-6.12323399573677E-17,1.,0.));
#275=DIRECTION('',(0.,0.,-1.));
#276=DIRECTION('',(-1.,0.,0.));
#277=DIRECTION('',(0.,0.,-1.));
#278=DIRECTION('',(-1.,0.,0.));
#279=CARTESIAN_POINT('',(0.,0.,0.));
#280=CARTESIAN_POINT('',(0.,0.,15.));
#281=CARTESIAN_POINT('',(0.75,9.18485099360515E-17,15.));
#282=CARTESIAN_POINT('',(0.,0.,0.));
#283=CARTESIAN_POINT('',(0.75,9.18485099360515E-17,0.));
#284=CARTESIAN_POINT('',(0.,0.,15.));
#285=CARTESIAN_POINT('',(0.,0.,15.));
#286=CARTESIAN_POINT('',(0.5,0.,15.));
#287=CARTESIAN_POINT('',(0.,0.,15.));
#288=CARTESIAN_POINT('',(0.,-0.25,0.));
#289=CARTESIAN_POINT('',(-1.53080849893419E-17,5.42101086242752E-17,0.));
#290=CARTESIAN_POINT('',(0.,0.268950098235981,0.));
#291=CARTESIAN_POINT('',(-1.53080849893419E-17,0.518950098235981,0.));
#292=CARTESIAN_POINT('',(0.,0.,0.));
#293=CARTESIAN_POINT('',(0.,0.,35.));
#294=CARTESIAN_POINT('',(0.5,0.,35.));
#295=CARTESIAN_POINT('',(0.,0.,35.));
#296=CARTESIAN_POINT('',(0.,0.,45.));
#297=CARTESIAN_POINT('',(1.5,0.,45.));
#298=CARTESIAN_POINT('',(0.,0.,35.));
#299=CARTESIAN_POINT('',(1.5,0.,35.));
#300=CARTESIAN_POINT('',(0.,0.,45.));
#301=CARTESIAN_POINT('',(0.,0.49,45.));
#302=CARTESIAN_POINT('',(0.0705336798970119,-0.0050000000001878,45.));
#303=CARTESIAN_POINT('',(-0.070533679899963,-0.00499999999976723,45.));
#304=CARTESIAN_POINT('',(0.,-0.5,45.));
#305=CARTESIAN_POINT('',(0.,0.,45.));
#306=CARTESIAN_POINT('',(0.,0.,35.));
#307=CARTESIAN_POINT('',(-0.070533679899963,-0.00499999999976723,65.));
#308=CARTESIAN_POINT('',(-0.070533679899963,-0.00499999999976723,65.));
#309=CARTESIAN_POINT('',(0.,0.49,65.));
#310=CARTESIAN_POINT('',(0.0705336798970119,-0.0050000000001878,65.));
#311=CARTESIAN_POINT('',(0.0705336798970119,-0.0050000000001878,65.));
#312=CARTESIAN_POINT('',(0.,0.49,65.));
#313=CARTESIAN_POINT('',(0.,-0.5,65.));
#314=CARTESIAN_POINT('',(0.,-0.5,65.));
#315=CARTESIAN_POINT('',(0.,-0.00500000000000001,65.));
#316=CARTESIAN_POINT('',(0.,0.268950098235981,0.05));
#317=CARTESIAN_POINT('',(-1.53080849893419E-17,0.518950098235981,0.05));
#318=CARTESIAN_POINT('',(0.,0.268950098235981,0.05));
#319=CARTESIAN_POINT('',(0.,0.268950098235981,0.05));
#320=CARTESIAN_POINT('',(0.,-0.25,0.05));
#321=CARTESIAN_POINT('',(-1.53080849893419E-17,5.42101086242752E-17,0.05));
#322=CARTESIAN_POINT('',(0.,-0.25,0.05));
#323=CARTESIAN_POINT('',(0.,-0.25,0.05));
#324=MECHANICAL_DESIGN_GEOMETRIC_PRESENTATION_REPRESENTATION('',(#24),#325);
#325=(
GEOMETRIC_REPRESENTATION_CONTEXT(3)
GLOBAL_UNCERTAINTY_ASSIGNED_CONTEXT((#326))
GLOBAL_UNIT_ASSIGNED_CONTEXT((#332,#328,#327))
REPRESENTATION_CONTEXT('EX-D11Q','TOP_LEVEL_ASSEMBLY_PART')
);
#326=UNCERTAINTY_MEASURE_WITH_UNIT(LENGTH_MEASURE(2.E-5),#332,
'DISTANCE_ACCURACY_VALUE','Maximum Tolerance applied to model');
#327=(
NAMED_UNIT(*)
SI_UNIT($,.STERADIAN.)
SOLID_ANGLE_UNIT()
);
#328=(
CONVERSION_BASED_UNIT('DEGREE',#330)
NAMED_UNIT(#329)
PLANE_ANGLE_UNIT()
);
#329=DIMENSIONAL_EXPONENTS(0.,0.,0.,0.,0.,0.,0.);
#330=PLANE_ANGLE_MEASURE_WITH_UNIT(PLANE_ANGLE_MEASURE(0.0174532925),#331);
#331=(
NAMED_UNIT(*)
PLANE_ANGLE_UNIT()
SI_UNIT($,.RADIAN.)
);
#332=(
LENGTH_UNIT()
NAMED_UNIT(*)
SI_UNIT(.MILLI.,.METRE.)
);
ENDSEC;
END-ISO-10303-21;
